Steel Guitar France

Un Forum Français dédié a la Steel Guitar (Est 2001)
 
AccueilAccueil  FAQFAQ  S'enregistrerS'enregistrer  MembresMembres  Connexion  

Partagez | 
 

 Théorie Test

Voir le sujet précédent Voir le sujet suivant Aller en bas 
AuteurMessage
James Schmitt
Rang: Administrateur
avatar

Nombre de messages : 6041
Age : 100
Localisation : St Beat - Pyrenées
Date d'inscription : 04/07/2005

MessageSujet: Théorie Test   Ven 4 Mai - 17:04

Do-------Ré-------Mi-------Fa-------Sol-------La-------Si------/octave Do
C---------D--------E--------F---------G---------A--------B-----/octave C
I --------II--------III-------IV--------V---------VI-------VII-- /octave I
I
Tonique----------Tierce-------------Quinte------------Septiéme
------------------ majeur ou mineur--------------------Majeur ou mineur
-------------------E------------Eb--------------------------B-----------Bb-

(le "Nashville Numbers System remplace les chiffres romains par :
1 2 3 4 5 6 7 / octave 1)

Good tout se fait par 2 dans la vie Bad
il en est de méme avec la Zique
Joyeux : Majeur - Triste : Mineur
en accord ( 3 notes) ça donne :
1 tonique + 1 Tierce ( majeur/joyeux ou mineur/triste) & 1 Quinte : 1 3 5
majeur en C : C E G : 1 3 5
mineur en C : C Eb G : 1 b3 5
une fois que cette base est aquise on peut passer aux accords a 4 notes :
Accords Majeurs :
1) Majeure 7éme : Tonique + Tierce majeur + Quinte & 7éme majeure
en C : C E G B : 1 3 5 maj7
2) Dominant 7éme : Tonique + Tierce majeur + Quinte & 7éme Mineur
en C : C E G Bb : 1 3 5 7 ou b7 ( dom7)
Accords Mineurs :
1) Mineur 7éme : Tonique + Tierce mineur + Quinte & 7éme mineur
en C : C Eb G Bb : 1 b3 5 7 ( dom7)
2) Mineur majeur 7éme ( celui là il est particulier ! )
--- Tonique + Tierce mineur + Quinte & 7éme majeur
en C : C Eb G B : 1 b3 5 maj7

Bien entendu ça c'est compliqué,
car come vous pouvez constater si y'en a 2 & bien y'en aura 4 !
a noter que ces accords a 4 notes sont dans le méme octave
si on veut ( & on doit ) aller au dela, on passe dans l'octave superieur
c'est pour ça qu'il y'a les accords de 9éme, 11éme & 13éme



Dernière édition par James Schmitt le Mer 23 Nov - 16:15, édité 8 fois
Revenir en haut Aller en bas
https://www.facebook.com/will.pickit
James Schmitt
Rang: Administrateur
avatar

Nombre de messages : 6041
Age : 100
Localisation : St Beat - Pyrenées
Date d'inscription : 04/07/2005

MessageSujet: Re: Théorie Test   Dim 13 Mai - 10:29

Harlem Nocturne (Em)

Partie A - Théme :

----Em---------------------------------------/-Em-------------------------------Am
1
2-----------------------5D1/2 (ou 4)-------/
3
4
5-------------5>>5A------------5V (ou 4)-/------4>5----3
6---------------------------------------------/--------------------3-----------------3
7--------5------------------------------------/------------------------------------------3
8----------------------------------------------------------------------3
9----------------------------------------------/---------------------------3D-(ou2)
10---5----------------------------------------/


--Am----------------------------------------------/-Am-------------------------/----Em
1
2---------------------------10D1/2-(ou9)--------/
3
4
5---------------10>10A------------10V-(ou9)----/---9>10---8-------------/---7>>>5
6---------------------------------------------------------------------8-----------/
7---------10----------------------------------------/
8--------------------------------------------------------------------------8------/
9------------------------------------------------------------------------------8--/
10---10--------------------------------------------/-----------------------------/---7>>>5

Répétéz les 2 tabs ci dessus ( Partie A)

ensuite Partie B :

--G6--------------F6---------------------/--G6-----------F6-------G6

4-----------------------------------6E--/
5---8---------------6-----6>6A-------/---8--------------6---/---8
6---8---------8-----6-----------------/----8--------8----6---/---8---------8---8B>8
7----------8---------------------------/----------8-----------/---------8------------------8
8---8E-------------6E-----------------/---8E------------6E--/---8E---------------------------8>8E

ensuite montée diatonique au IV (C6) par 1/2 ton de cases 8 a 13 sur cordes 5 6 8 & levier E

---C6----------------Bb6------------------------/----C6---------------------Bb6

4-----------------------------------------11E ---/
5---13-----------------11----11>11A-----------/-----13--------------------11----------/
6---13----------13----11------------------------/-----13------------13-----11-----11*-/
7-----------13------------------------------------/--------------13
8---13E---------------11E------------------------/----13E------------------11E--------/

* : c'est la note (G) qui lance la suite que voila :

4
5---13-------11-----------9-----------7-----------5-------------3---------------1
6
7
8--------13----------11---------9------------7------------5--------------3



9
Revenir en haut Aller en bas
https://www.facebook.com/will.pickit
 
Théorie Test
Voir le sujet précédent Voir le sujet suivant Revenir en haut 
Page 1 sur 1
 Sujets similaires
-
» Test de micro (magnétique) Barcus Berry
» [jazz] Théorie (notations d'accords)
» TEST : micro EMG acoustique ACS-EV
» [THTV 2010] A1 Secret Test Drive - Tokio Hotel TV Special
» Blind-test "TUBES"

Permission de ce forum:Vous ne pouvez pas répondre aux sujets dans ce forum
Steel Guitar France  :: Réclamations & Zone de Test-
Sauter vers: