Steel Guitar France

Un Forum Français dédié a la Steel Guitar (Est 2001)
 
AccueilAccueil  FAQFAQ  S'enregistrerS'enregistrer  MembresMembres  Connexion  

Partagez | 
 

 sugarcane time - C6

Voir le sujet précédent Voir le sujet suivant Aller en bas 
AuteurMessage
Stephan Franck



Nombre de messages : 91
Localisation : California USA
Date d'inscription : 22/04/2006

MessageSujet: sugarcane time - C6   Mer 3 Jan - 20:08

Pour continuer sur la bonne lancee, petit solo rigolo que je joue sur Sugarcane Time... Simple progression CDG...

J'encourage tout le monde a partager!

E-------------------------------------12--
C----7---9---11--12-----11S12--12--
A----7---9---11--12-----11S12--12--
G----7---9---11--12-----11S12------
E----------------------------------
C----------------------------------

E--------------------14--------------
C----12--13--14--14--14---11s12--
A----12--13--14--14--14---11s12--
G----12--13--14-------14---11s12--
E--------------------------------
C--------------------------------



E---6S7--6S5--------------------------5---
C---6S7--6S5---5---6S7--6S5-------5---
A---6S7--6S5---5---6S7--6S5-----------
G-----------------5----------------------5
E----------------------6S7--6S5---------
C--------------------------------------------


E---11S12-------------------------
C---11S12---12--12--------12-------
A---11S12---12--12--12---12-------
G ------------ 12--12--12---12-------
E------------------------12------------
C---------------------------------


E—11--11s12--11s12-—12s15—-----
C—11--11s12--11s12-—-----------
A—11--11s12--------------------
G-------------------------------
E-------------------------------
C-------------------------------


E—12-13-14---13s14---14s20------
C—12-13-14---13s14--------------
A—12-13-14----------------------
G-------------------------------
E-------------------------------
C-------------------------------


E—18s19s18s19s18s19---18s19-----19-
C—18s19s18s19s18s19---18s19-----19-
A—18s19s18s19s18s19---18s19-18-19-
G---------------------------------
E---------------------------------
C---------------------------------


E-19—18s19—19s20—20—15s17—15—11s12—------------
C-19—18s19—--------------------------------------------12--
A-19—18s19—--------------------------------------------------
G---------------------------------------------------------------
E---------------------------------------------------------------
C---------------------------------------------------------------
Revenir en haut Aller en bas
 
sugarcane time - C6
Voir le sujet précédent Voir le sujet suivant Revenir en haut 
Page 1 sur 1
 Sujets similaires
-
» Time Fades Away
» CRAZY TIME RECORDS présente "A Rockabilly Party" N°1
» "SPRING TIME COMING" MOUNTAIN MEN
» Time's Up
» 50''s Prime Time Café

Permission de ce forum:Vous ne pouvez pas répondre aux sujets dans ce forum
Steel Guitar France  :: Tablatures & Cours-
Sauter vers: