Steel Guitar France

Un Forum Français dédié a la Steel Guitar (Est 2001)
 
AccueilAccueil  FAQFAQ  S'enregistrerS'enregistrer  MembresMembres  Connexion  

Partagez | 
 

 pedal steel : le solo de "Water" de Brad Paisley

Voir le sujet précédent Voir le sujet suivant Aller en bas 
AuteurMessage
Pierre Benko



Nombre de messages : 4
Localisation : Hte Vienne
Date d'inscription : 28/11/2014

MessageSujet: pedal steel : le solo de "Water" de Brad Paisley   Lun 1 Déc - 19:51

Bonjour à tous!

tout juste arrivé sur ce forum, voici mon premier post.

Le solo en question est sur ce lien, à 3"14""   https://www.youtube.com/watch?v=1AHnQtY1bg4

ou directement ici :https://www.youtube.com/watch?v=VIm2t2oWIsk

j'ai essayé de le retranscrire en tab ( tout du moins le début)

1--------------------------------------------------------------------------------------------------------------
2---------------------------------------------------------------------------------------------------------------
3---------------------------------------------------------------------------------------------------------------
4------------------------------------------------------8------------8---------------8----8-------8------------
5---------------------------------------8-------------8----8a-----8a--------------8----8a-----8---------------
6-------------------------8-----8b----------8b----------------------------8b------------------------8b---------
7------------------8---------------------------------------------------------------------------------------------
8-----7----8------------------------------------------------------------------------------------------------------
9---------------------------------------------------------------------------------------------------------------
10--------------------------------------------------------------------------------------------------------------
      p                  p      p               I        p        im                im       p       im     im               p

1--------------------------------------------------------------------------------------------------------------
2---------------------------------------------------------------------------------------------------------------
3---------------------------------------------------------------------------------------------------------------
4------8----------------8-----------------8-------8------- 8-------------8-----------8------------------------
5------8------8a-------8-----------------8-------8a------8--------------8----8c----8---------------------
6---------------------------------8b-------------------------------8b--------------------------8----------------
7---------------------------------------------------------------------------------------------------------------
8---------------------------------------------------------------------------------------------------------------
9---------------------------------------------------------------------------------------------------------------
10--------------------------------------------------------------------------------------------------------------
         im                im           p         im          im                p         im           im          p

1--------------------------------------------------------------------------------------------------------------
2---------------------------------------------------------------------------------------------------------------
3------8----------------8------8-------8---------------------------------------------------------------------
4------8------8c-------8c-----8c-------8 vibrato -----------------------------------------------------
5---------------------------------------------------------------------------------------------------------------
6--------------------------------------------------------------------------------------------------------------
7---------------------------------------------------------------------------------------------------------------
8---------------------------------------------------------------------------------------------------------------
9---------------------------------------------------------------------------------------------------------------
10--------------------------------------------------------------------------------------------------------------
        im                  im        im          

1--------------------------------------------------------------------------------------------------------------
2---------------------------------------------------------------------------------------------------------------
3------8b--- 8------------b------8b------8--------------b---------8b-------b-------------------------------
4------8c----8----8-----8c------8c-------8-------8----8c----- ----8c-----8c-----8---------------------------
5------------------8-----8c------------------------8----8c-----------------8c-----8------------8-------------
6----------------------------------------------------------------------------------------------8b----------------
7---------------------------------------------------------------------------------------------------------------
8---------------------------------------------------------------------------------------------------------------
9---------------------------------------------------------------------------------------------------------------
10--------------------------------------------------------------------------------------------------------------
        im             pi                 im                   pi                     im          pi        


jusque là ca va, j'y arrive au tempo
mais je sèche complètement sur la suite ! ! !

il y a une note juste après que je ne sais pas comment jouer : le sol#
qui doit etre joué sur la 5eme corde, 8 eme case, en même temps que le do sur la 4eme corde : sauf que le seul moyen d'y arriver ce serait de faire une demi pedale A, et ca me parait tiré par les cheveux .....


je ne sais pas si je suis très clair ....
en tout cas le gars sur la vidéo ne bouge pas sa barre lorsqu'il joue ce double stop, il reste en 8 eme case ....

et encore, ce n'est que le début, je ne parle même pas de la partie rapide au milieu ......

Je serais donc très reconnaissant  à la communauté, si elle pouvait éclairer ma lanterne de débutant !

je joue sur un zoomsteel stage one, E9, "réglage usine"

par avance merci

Pierre

(j'aurais bien mis un petit mp3 ou je le joue mais je ne sais pas trop comment faire)
Revenir en haut Aller en bas
James Schmitt
Rang: Administrateur


Nombre de messages : 6041
Age : 99
Localisation : St Beat - Pyrenées
Date d'inscription : 04/07/2005

MessageSujet: Re: pedal steel : le solo de "Water" de Brad Paisley   Mar 2 Déc - 12:30

utiliser pédale A a moitié ( en demi ton ) est courament utilisé Pierre
c'est un coup a apprendre - tres utile ( pour un accord mineur par exemple avec pedale A1/2 & B )
ça ce " Squeeze " au feeling

certaines psgs ont le levier V qui baisse cordes 5 ( & 10 ) d'un demi ton
(Levier V est Vertical entre Left Knee Left & Left Knee Right)
ce qui peut remplacer le demi pédale A

_________________
http://steelguitarfrance.com
http://pedalsteelguitarfrance.com
http://www.youtube.com/user/SteelGuitarFrance?
https://www.facebook.com/will.pickit


ZumSteel D10 9/8 - Gibson EH 150 - Mesa Boogie Studio Preamp - Lexicon MPX1
PV Telonics  - Peavey Nashville 1000 - BJS steel bar - Jagwire strings -


Dernière édition par James Schmitt le Mar 2 Déc - 14:04, édité 2 fois
Revenir en haut Aller en bas
https://www.facebook.com/will.pickit
Pierre Benko



Nombre de messages : 4
Localisation : Hte Vienne
Date d'inscription : 28/11/2014

MessageSujet: Re: pedal steel : le solo de "Water" de Brad Paisley   Mar 2 Déc - 13:21

hé hé hé
c'est bien ce que je craignais !! ça doit pas être évident de chopper le coup ....

je pense que tu as raison car il joue deux fois cette note, et la deuxième fois, ca va vite mais il la "tire" un peu plus pour presque aller chercher le "la" ...
( un peu comme un bend quoi)

ya plus qu'a s’entraîner ....

j'aimerai bien trouver la tab parce que la suite ça risque d’être coton !!
Revenir en haut Aller en bas
James Schmitt
Rang: Administrateur


Nombre de messages : 6041
Age : 99
Localisation : St Beat - Pyrenées
Date d'inscription : 04/07/2005

MessageSujet: Re: pedal steel : le solo de "Water" de Brad Paisley   Mar 2 Déc - 13:33

http://bb.steelguitarforum.com/viewtopic.php?t=191689&sid=1602652cfd14c6eaf47d319e58b701f9

http://www.coolmojito.com/artist/Randel+Currie/1/488515

_________________
http://steelguitarfrance.com
http://pedalsteelguitarfrance.com
http://www.youtube.com/user/SteelGuitarFrance?
https://www.facebook.com/will.pickit


ZumSteel D10 9/8 - Gibson EH 150 - Mesa Boogie Studio Preamp - Lexicon MPX1
PV Telonics  - Peavey Nashville 1000 - BJS steel bar - Jagwire strings -
Revenir en haut Aller en bas
https://www.facebook.com/will.pickit
Pierre Benko



Nombre de messages : 4
Localisation : Hte Vienne
Date d'inscription : 28/11/2014

MessageSujet: Re: pedal steel : le solo de "Water" de Brad Paisley   Mar 2 Déc - 14:01

yep !
j'ai cherché déjà sur ces liens mais rien de concluant (ou aurais-je mal fouillé??)

ya toujours un truc qui me chiffonne :

sur la fin de la première partie du solo je fais BC puis éversion du pied pour ne faire que B

puis immédiatement après, toujours en maintenant B, il faudrait faire une 1/2 A

mais c'est pas simple parceque le pied vient juste de decoller de C tout en maintenant B

en résumé pas simple de faire : BC ; B ; B1/2A B tres vite !!!


je suis tombé sur ce site steeltab.com/alex.htm


je vais ecrire on verra bien .......si ca se trouve c'est un levier V ...
Revenir en haut Aller en bas
Pierre Benko



Nombre de messages : 4
Localisation : Hte Vienne
Date d'inscription : 28/11/2014

MessageSujet: Re: pedal steel : le solo de "Water" de Brad Paisley   Mar 2 Déc - 15:08

cool !
trouvé !

sur un site japonais !

http://img5.blogs.yahoo.co.jp/ybi/1/ee/3c/steeler482003/folder/598605/img_598605_25110964_1?1373589342


http://world3489.rssing.com/chan-12859784/all_p2.html


Revenir en haut Aller en bas
Contenu sponsorisé




MessageSujet: Re: pedal steel : le solo de "Water" de Brad Paisley   Aujourd'hui à 19:48

Revenir en haut Aller en bas
 
pedal steel : le solo de "Water" de Brad Paisley
Voir le sujet précédent Voir le sujet suivant Revenir en haut 
Page 1 sur 1
 Sujets similaires
-
» Pedal steel ''Jackson Black Jack'' ... 995$ !!!
» Conseil achat Pedal Steel
» April in Paris sur pedal steel
» pedal steel
» SHEFFIELD PEDAL STEEL GUITARS UK

Permission de ce forum:Vous ne pouvez pas répondre aux sujets dans ce forum
Steel Guitar France  :: Tablatures & Cours-
Sauter vers: