Steel Guitar France

Un Forum Français dédié a la Steel Guitar (Est 2001)
 
AccueilAccueil  FAQFAQ  S'enregistrerS'enregistrer  MembresMembres  Connexion  

Partagez | 
 

 Encore une Initiation a la PSG E9

Voir le sujet précédent Voir le sujet suivant Aller en bas 
AuteurMessage
James Schmitt
Rang: Administrateur


Nombre de messages : 6041
Age : 99
Localisation : St Beat - Pyrenées
Date d'inscription : 04/07/2005

MessageSujet: Encore une Initiation a la PSG E9   Mer 21 Nov - 19:13

Pour mieux comprendre la PSG quand on débute serait de savoir/comprendre que, initialement les 1ere PSGs n'avaient que 8 cordes
la corde la plus aigue était un G#/Sol diése en 1ere corde
Qui fait que s: une PSG moderne 10 cordes, la corde la plus aigue est tjs le G#/Sol diése
mais c'est la 3éme corde

les cordes 1 : F#/Fa diése & 2 : Eb/Mi bémol ont étés rajoutées plus tard ( bien entendu, pour une bonne raison )
Beaucoup de débutants ont du mal a comprendre l'utilité de ces 2 cordes
surtout le fait qu'elles soient plus graves que corde 3 : G#/Sol diése

au cas ou vous n'aurez pas appris/compris : l'accord " Nashville E9 tuning " comprend 2 accords a vide : E/Mi & B/Si
pas de pédales - pas de leviers ( par la suite Oui - mais pour commencer pas encore

le F#/Fa diése ( corde 1) est la Quinte de B/Si & le Eb/Mi bémol (corde 2) est la Tierce majeure de B/Si
l'utilisation de ces deux cordes en unissons sont utilisées comme si ont jouaient au " Squash " ou a la " Pelote Basque "
elles servent de mur pour rebondir
donc oui, on va du E/Mi (Tonique/Fondamentale) sur cordes 4 & 5 pour rebondir s: B/Si (Quinte de E/Mi) cordes 1 & 2
et revenir s: le E/Mi cordes 3 & 4

éxample :

-----E----B----E

1---------0
2---------0
3---------------0
4----0----------0
5----0





autre sujet : la majorité de débutants ne comprénnent pas l'utilité de la corde 2
beaucoup méme la trouve " génante "
il est INDISPENSABLE de l'incorporer dans le jeu de " tricot " : gammes, plans, licks & accords

si on prend une gamme majeure en C/Do a la 8éme case & qu'on joue les 4 premiers degrés de la gamme, la corde 2 est " naturelle " : Pas de Levier ! ni de pédales...

éxample :
Gamme majeure de C/Do a la fret/case 8

1°---C maj7 (Ionien)
1
2----------------------------------8
3
4---------------------------------------8
5------------------------8---8A
6-------------8---8B
7--------8
8---8

2°---D mineur7 (Dorien )
1--------------------------------------8
2-----------------------------8
3
4----------------------------------8
5-------------------8---8A
6--------8---8B
7---8

3°---E mineur7 (Phrygien )
1--------------------------------------8
2----------------------------8
3-------------------------------------------8
4---------------------------------8
5----------------8----8A
6---8----8B

4°---F maj7 (Lydien)
1---------------------------------8
2---------------------8
3----------------------------------------8---8B
4---------------------------8
5---------8----8A
6---8B

Ensuite les 3 degrés suivants jusqu'a "l'octave " de C/Do ( qui font 4 ) se jouent a la 15éme fret/case
NOTEZ que corde 2 est baissée d'un demi ton ( avec levier D)

éxample :

5°---G 7 dominant (Mixolydien)
1
2----------------------------------------------15D
3
4------------------------------------------------------15
5--------------------------------15----15A
6----------------15----15B
7---------15
8---15

6°---A mineur7 (Aéolien)
1----------------------------------------------------------15
2-----------------------------------------15D
3
4--------------------------------------------------15
5--------------------------15----15A
6----------15----15B
7---15

7° ---B mineur b5 (Locrien)
1-------------------------------------------------15
2---------------------------------15D
3----------------------------------------------------------15
4------------------------------------------15
5------------------15----15A
6---15----15B

1°---C maj7 a l'Octave (Ionien)

1----------------------------------------15
2-------------------------15D
3-----------------------------------------------15----15B
4----------------------------------15
5------------15---15A
6---15B

ensuite 2 examples de " Lick " classique en G/Sol - fret/case 3 - tjs avec corde 2 :

éxample 1 avec corde 2 " naturelle "

2--------------3-----------3
3
4---------------------------------3
5---3>>3A--------3A


éxample 2 avec corde 2 Baissée d'un demi ton (Levier D)

2--------------3D-----------3D
3
4----------------------------------3
5---3>>3A--------3A


pour finir 2 éxamples d'accords en 7éme utilisant corde 2 - tjs en G/Sol

éxample 1 G/Sol maj7 - corde 2 " Naturélle "

2----3
3
4
5----3
6
7
8----3

éxample 2 : G/Sol 7 (7éme Dominant) - corde 2 Baissée d'un demi ton (Levier D)

2---3D
3
4
5---3
6
7
8---3




_________________
http://steelguitarfrance.com
http://pedalsteelguitarfrance.com
http://www.youtube.com/user/SteelGuitarFrance?
https://www.facebook.com/will.pickit


ZumSteel D10 9/8 - Gibson EH 150 - Mesa Boogie Studio Preamp - Lexicon MPX1
PV Telonics  - Peavey Nashville 1000 - BJS steel bar - Jagwire strings -
Revenir en haut Aller en bas
https://www.facebook.com/will.pickit
James Schmitt
Rang: Administrateur


Nombre de messages : 6041
Age : 99
Localisation : St Beat - Pyrenées
Date d'inscription : 04/07/2005

MessageSujet: Re: Encore une Initiation a la PSG E9   Ven 30 Aoû - 19:42




de tres bon cours ici :







_________________
http://steelguitarfrance.com
http://pedalsteelguitarfrance.com
http://www.youtube.com/user/SteelGuitarFrance?
https://www.facebook.com/will.pickit


ZumSteel D10 9/8 - Gibson EH 150 - Mesa Boogie Studio Preamp - Lexicon MPX1
PV Telonics  - Peavey Nashville 1000 - BJS steel bar - Jagwire strings -
Revenir en haut Aller en bas
https://www.facebook.com/will.pickit
 
Encore une Initiation a la PSG E9
Voir le sujet précédent Voir le sujet suivant Revenir en haut 
Page 1 sur 1
 Sujets similaires
-
» Initiation au DJ
» Stage d'harmonica : Initiation Improvisation Blues_Rock_Country
» Stage Découverte & Initiation (Hénin-Beaumont - 62110)
» Initiation à la PSG
» initiation à la basse walking

Permission de ce forum:Vous ne pouvez pas répondre aux sujets dans ce forum
Steel Guitar France  :: Tablatures & Cours-
Sauter vers: