Steel Guitar France

Un Forum Français dédié a la Steel Guitar (Est 2001)
 
AccueilAccueil  FAQFAQ  S'enregistrerS'enregistrer  MembresMembres  Connexion  

Partagez | 
 

 My Baby Thinks He's a Train

Voir le sujet précédent Voir le sujet suivant Aller en bas 
AuteurMessage
James Schmitt
Rang: Administrateur
avatar

Nombre de messages : 6041
Age : 100
Localisation : St Beat - Pyrenées
Date d'inscription : 04/07/2005

MessageSujet: My Baby Thinks He's a Train   Mer 8 Aoû - 12:28

Travis Toy
http://www.youtube.com/watch?v=EjlQ5tT_tD4&feature=youtu.be

_________________
http://steelguitarfrance.com
http://pedalsteelguitarfrance.com
http://www.youtube.com/user/SteelGuitarFrance?


ZumSteel D10 9/8 - Gibson EH 150 - Mesa Boogie Studio Preamp - Lexicon MPX1
PV Telonics  - Peavey Nashville 1000 - BJS steel bar - Jagwire strings -
Revenir en haut Aller en bas
https://www.facebook.com/will.pickit
John Sluszny



Nombre de messages : 1219
Localisation : Bruxelles
Date d'inscription : 14/07/2005

MessageSujet: Re: My Baby Thinks He's a Train   Mer 8 Aoû - 19:32

http://www.youtube.com/watch?v=BEkDavGXah8
Courage !!! Wink
Revenir en haut Aller en bas
Xavier Quilici

avatar

Nombre de messages : 528
Age : 66
Localisation : Tarn
Date d'inscription : 06/07/2005

MessageSujet: Re: My Baby Thinks He's a Train   Jeu 9 Aoû - 6:01

Sad Sad Sad Sad
Revenir en haut Aller en bas
http://rustylegs.wifeo.com/
James Schmitt
Rang: Administrateur
avatar

Nombre de messages : 6041
Age : 100
Localisation : St Beat - Pyrenées
Date d'inscription : 04/07/2005

MessageSujet: Re: My Baby Thinks He's a Train   Jeu 9 Aoû - 15:23

----C-------------------------------/--C--------------------------------------------------------------------------------/

1-----------------------------------/---------------3---------------3-----------------3--------------------------------/
2-----------------------------------/-----------------------------------------------------------------------------------/
3-----------------------------------/-----------------------------------------------------------------------------------/
4--------------------------3~~----/-----------------------------------------------------------------------3----------/
5--------------------------3>3A---/---2A>>3A-------2A>>3A--------2A>>3A--------3A>3--------3----3A-----/
6---3B--------3B---3B------------/----------------------------------------------------------------3B---------3B----/
7---------3------------------------/------------------------------------------------------------------------------------/


----F-----------------------------/--F-------------------------------/--C--------------------------------------------/

4-----------------------------------------------------------------------/---3~~----3---------3----3~~-----------------/
5---8>8A-------6A----6>> 4--/--8>8A-------6A----6>>3A~--/--- 3>3A----3---------3----3>3A----3A~~----/
6---8>8B-------6B----6>> 4--/--8>8B-------6B----6>>3B~--/-----------------3B---------------------3B~~----/
7------------8-------------------/-----------8---------------------/-----------------------3---------------------------/


--G----------------------------/--G---------------------------------C

2-----------1------------------/
3------------------------------/
4------------------------------/
5---1>1A-------1>1A-------/--------------------4>3----------3---3A~~
6----(B)---------------------/------3B---3B--------------3B---------3B~~
7-------------------------1>/> 3--------------3

Qui prend la suite ? Basketball

_________________
http://steelguitarfrance.com
http://pedalsteelguitarfrance.com
http://www.youtube.com/user/SteelGuitarFrance?


ZumSteel D10 9/8 - Gibson EH 150 - Mesa Boogie Studio Preamp - Lexicon MPX1
PV Telonics  - Peavey Nashville 1000 - BJS steel bar - Jagwire strings -
Revenir en haut Aller en bas
https://www.facebook.com/will.pickit
Contenu sponsorisé




MessageSujet: Re: My Baby Thinks He's a Train   

Revenir en haut Aller en bas
 
My Baby Thinks He's a Train
Voir le sujet précédent Voir le sujet suivant Revenir en haut 
Page 1 sur 1
 Sujets similaires
-
» Because there's something about you baby
» Vox Lil' night Train (un ampli pour Arnaud)
» ticket de train.
» Accès au Parc depuis Paris / en train !
» You knock me off of my feet now baby !

Permission de ce forum:Vous ne pouvez pas répondre aux sujets dans ce forum
Steel Guitar France  :: Hot Licks-
Sauter vers: