Steel Guitar France

Un Forum Français dédié a la Steel Guitar (Est 2001)
 
AccueilAccueil  FAQFAQ  S'enregistrerS'enregistrer  MembresMembres  Connexion  

Partagez | 
 

 Tablas C6th 8 cordes - Papa Yellow Steel

Voir le sujet précédent Voir le sujet suivant Aller en bas 
AuteurMessage
Eddie Jaudouin



Nombre de messages : 498
Age : 57
Localisation : Angers - Maine et Loire
Date d'inscription : 05/11/2007

MessageSujet: Tablas C6th 8 cordes - Papa Yellow Steel   Mer 17 Nov - 16:25

Bonjour,

Un petit exercice pour travailler la gamme de Do en C6th tuning non pedals (La do mi sol la do mi sol).
Départ, Do 5 ième Case, 5 ième corde (position 3).


(ascendant).
1------------------------------------------------------------------------------------------------------------------------------------
2------------------------------------------------------------------------------------------------------------------------------------
3---------4----------4--5--------4--5--7------------7--9--------------9--11----------------11--12--------12-------------------
4------5----------5 -----------5---------------7--8----------------10------------------12-----------------------------------------
5---5----------5-----------------------------------------------10------------------12------------------------ 12
6--------------------------------------------------------------------------------------------------------------- 12 -------------------
7------------------------------------------------------------------------------------------------------------------------------------
8------------------------------------------------------------------------------------------------------------------------------------

(descendant).

1-----------------------------------------------------------------------------------------------------------------------------------
2-----------------------------------------------------------------------------------------------------------------------------------
3---12--11---------------11---------------------9-------------------7-------------------5--4-------------4---------------------
4------------12---------------12--------------------10------------------8--7-------------------5-------------5------------------
5-----------------12---------------12--10---------------10--9-----------------7-------------------5-------------5--4-----5----
6-----------------------------------------------------------------------------------------------------------------------------------
7-----------------------------------------------------------------------------------------------------------------------------------
8-----------------------------------------------------------------------------------------------------------------------------------

Avec de la pratique, vous pourrez y incorporer certaines liaisons qui rendront le jeux beaucoup plus fluide!

"PYS".sunny (aussi sur les PSG manche C6th sans les pédales et avec deux cordes en plus)

Maîtres Yoyo et James, si vous avez des commentaires, n'hésitez pas ! I am just a student albino


Revenir en haut Aller en bas
http://www.youtube.com/papayellowsteel
Eddie Jaudouin



Nombre de messages : 498
Age : 57
Localisation : Angers - Maine et Loire
Date d'inscription : 05/11/2007

MessageSujet: Re: Tablas C6th 8 cordes - Papa Yellow Steel   Mer 17 Nov - 20:23

Re,

J'espère que la tab est correcte sur vos ordi (PC). J'ai un Mac et il ce peut qu'il y est certaines incompatibilités...

A la fin de la première ligne (12 ième case) c'est un accord de Do.

Merci de me le faire savoir !

Eddie. lol!

Revenir en haut Aller en bas
http://www.youtube.com/papayellowsteel
John Sluszny



Nombre de messages : 1219
Localisation : Bruxelles
Date d'inscription : 14/07/2005

MessageSujet: Re: Tablas C6th 8 cordes - Papa Yellow Steel   Jeu 18 Nov - 19:03

Sur le pc ça marche,mais je n'ai pas ma psg avec moi,
j'essaierai demain.
Merci,ça a l'air interressant.
Revenir en haut Aller en bas
Eddie Jaudouin



Nombre de messages : 498
Age : 57
Localisation : Angers - Maine et Loire
Date d'inscription : 05/11/2007

MessageSujet: Re: Tablas C6th 8 cordes - Papa Yellow Steel   Lun 29 Nov - 17:13



Arpège main droite C6th tuning (ACEGACEG).

P-pouce
1-index
2-majeur



1----0--------------------------------------------------------------------------------------------
2--------0-------0-------------------------------------------------------------------------------
3------------0------------0-------0--------------------------------------------------------------
4------------------------------0------0-------------0--------------------------------------------
5-----------------------------------------------0--------0--------------0------------------------
6-------------------------------------------------------------0--------------0----------0--------
7----------------------------------------------------------------------------------0--------------
8-------------------------------------------------------------------------------------------------
2 1 P 2 1 P 2 1 P 2 1 P 2 1 P 1

A pratiquer en double croches !

@ Bientôt PapaYellow santa

Ps;Croyez moi je m'applique! J'ai un mac et quand je fais Prévisualiser ça me change toujours quelque chose, j'en ai m..... restons calme ! J'avais pourtant pris soin de mettre le doigté main droite exactement sous les notes et elles se retrouvent toutes ratatinées en début de tab !!!!! Que faire ? Je ne vais quant même pas m'acheter un PC un P quoi ?
Ils pourraient pas s'entendre ces deux la... papier,crayon de bois et gomme ça peut faire l'affaire... Motivé sunny



Revenir en haut Aller en bas
http://www.youtube.com/papayellowsteel
Eddie Jaudouin



Nombre de messages : 498
Age : 57
Localisation : Angers - Maine et Loire
Date d'inscription : 05/11/2007

MessageSujet: Re: Tablas C6th 8 cordes - Papa Yellow Steel   Lun 29 Nov - 20:35

J'en reviens à l'exercice ci-dessus !

Comme vous l'aurez peut-être remarqué le doigté main droite nous fait 2 1 P 2 1 P 2 1 P etc.. et 1 pour finir (malgré mon problème Mac, Pc). Le doigté main droite devrait normalement être sous chaque note... rambo

Nous commençons donc nos double croches sur chaque temps mais jamais avec le même doigté !

1er temps: Doigt N°2 (majeur) corde 1
2ième temps: Doigt N°1 (index) corde 3
3ième temps: Pouce corde 5
4ième temps: Doigt N°2 (majeur) corde 5

C'est ça qui est intéressant clown !!!!!!!

J'oubliais, dans l'exercice de gammes brisées du tout début, je parlais de positions (évidemment il faut savoir de quoi on parle)!

Sur le C6th (CEGACE) six cordes et sa suffit !

Corde 2 open (C) 1ère position
Corde 3, case 3 (C) 2 ème position
Corde 4, case 5 (C) 3 ème position
Corde 5, case 8 (C) 4 ème position
Corde 6, case 12 (C) 5 ème position

Ce sont les cinq principales, il y en a encore trois autres, la 1st high pos, la 2nd high pos et la 3rd high pos.

Avec ces cinq positions nous pouvons savoir où se trouve la tonique (C) sur chaque corde.

De chaque position nous pouvons jouer la gamme majeure avec un doigté différent. Cependant d'après Jerry Byrd, les positions les plus jouables et employées sont la 3 et la 4 et tout dépend du conteste du morceau joué...

J'espère avoir été assez clair !

@ bientôt,

Eddie "PYS" scratch



Revenir en haut Aller en bas
http://www.youtube.com/papayellowsteel
Eddie Jaudouin



Nombre de messages : 498
Age : 57
Localisation : Angers - Maine et Loire
Date d'inscription : 05/11/2007

MessageSujet: Re: Tablas C6th 8 cordes - Papa Yellow Steel   Lun 29 Nov - 21:17

Je continue, j'aime ça albino

Position 1

E --------0--1--3--5--7--8-
C --0--2--------------------
A ---------------------------
G----------------------------
E ----------------------------
C ---------------------------

Position 2

E --------------3--5--7--8-
C-----2--4--5--------------
A--3------------------------
G---------------------------
E---------------------------
C---------------------------

Position 3

E-------------------5--7--8--
C---------4--5--7------------
A------5----------------------
G--5--------------------------
E------------------------------
C-----------------------------

Position 4

E-----------------------7--8---
C----------------7--9-----------
A---------7--8------------------
G-----7------------------------
E--8----------------------------
C-------------------------------

Position 5

E-------------------------------------
C-------------------------- 11--12---
A-----------------10---12------------
G---------9--10----------------------
E-----10------------------------------
C-12----------------------------------

@+ "PYS".

clown
Revenir en haut Aller en bas
http://www.youtube.com/papayellowsteel
Eddie Jaudouin



Nombre de messages : 498
Age : 57
Localisation : Angers - Maine et Loire
Date d'inscription : 05/11/2007

MessageSujet: Re: Tablas C6th 8 cordes - Papa Yellow Steel   Mar 30 Nov - 8:33

Pour mieux comprendre le rythme.

Si nous jouons ternaire:

1tt, 2tt, 3tt, ce qui nous donne (One tt, Two tt, three tt)

Si nous jouons binaire double croches

1end, 2end, 3end, 4end ce qui nous donne (One e n d, Two e n d, Three e n d, Four e n d)

Essayez pendant que vous jouez de dire à haute voix les One e n d, Tow e n d, Three a n d, Four e n d,

phonétiquement ça donne One e n de, Two e n de, Three e n de, Four e n de,

Il est fou PapaYellow ! et bien non, cette technique nous vient tout droit de l'école de batterie de Berkley (Californie).
C'est un ami batteur qui m'a appris ça !

A vous de voir les Z'amis, en tout cas je peux voir dire que ça aide à y voir plus clair...

Bonne journée.

Eddie "PYS" clown





Revenir en haut Aller en bas
http://www.youtube.com/papayellowsteel
Eddie Jaudouin



Nombre de messages : 498
Age : 57
Localisation : Angers - Maine et Loire
Date d'inscription : 05/11/2007

MessageSujet: Re: Tablas C6th 8 cordes - Papa Yellow Steel   Mar 7 Déc - 14:17

Bonjour,

un autre exercice en C6th tuning (Low2high, ACEGACEG) pour la main droite. Départ 5 ème case donc F ou Dm (relative mineure).

Doigté main droite: Pouce index ou pouce majeur, c'est bien de travailler les deux et c'est même indispensable !




1---------------------------------------------------------5--------6----------------
2-------------------------------------------------5------------------------6--------
3------------------------------------5----------------5---------------6-------------
4----------------------------5--------------- 5---------------------------------6---
5---------------5----------------5--------------------------------------------------
6-------5----------------5----------------------------------------------------------
7-----------5------------------------------------------------------------------------
8----5-------------------------------------------------------------------------------




1------------------------------------------------------------------------------------
2------------------------------------------------------------------------------------
3-----6--------------------------------------------------------------------------7---
4------------6----------------------------------------------------------7------------
5--------6----------------6--------------------------------7----------------7-------
6---------------6---------------- 6----------------7----------------7---------------
7-----------------------------6-------------------------7----------------------------
8-------------------------------------6--------7------------------------------------- Etc, jusqu'a la 12 ème case.


Généralement je pars de la case 1 jusqu'a la 12 et pareil de la 12 jusqu'a la 1 voir 0.
C'est du chromatique, n'est-ce pas ! (demi ton par demi ton).

Au début travailler lentement et sentez bien le One e n de, Two e n de, etc.........................
A 60 à la noir, ça va déjà assez vite ! Double croches les Z'amis. Essayez aussi avec les notes étouffées (palm blocking).

Bon courage !

Eddie "PYS". albino
Revenir en haut Aller en bas
http://www.youtube.com/papayellowsteel
Contenu sponsorisé




MessageSujet: Re: Tablas C6th 8 cordes - Papa Yellow Steel   Aujourd'hui à 23:52

Revenir en haut Aller en bas
 
Tablas C6th 8 cordes - Papa Yellow Steel
Voir le sujet précédent Voir le sujet suivant Revenir en haut 
Page 1 sur 1
 Sujets similaires
-
» Mambo Steel
» quelles cordes pour lap steel
» quelles cordes pour un lap steel
» Cordes pour Lap steel Gretsch G5700
» recherche corde lap steel

Permission de ce forum:Vous ne pouvez pas répondre aux sujets dans ce forum
Steel Guitar France  :: Tablatures & Cours-
Sauter vers: