Steel Guitar France

Un Forum Français dédié a la Steel Guitar (Est 2001)
 
AccueilAccueil  FAQFAQ  S'enregistrerS'enregistrer  MembresMembres  Connexion  

Partagez
 

 Editer les tabs

Aller en bas 
AuteurMessage
James Schmitt
Rang: Administrateur
James Schmitt

Nombre de messages : 6053
Age : 102
Localisation : St Beat - Pyrenées
Date d'inscription : 04/07/2005

Editer les tabs Empty
MessageSujet: Editer les tabs   Editer les tabs EmptyLun 14 Déc - 8:32

je crois avoir trouvé un éditeur qui permet de mettre les tabs sans trop avoir a mazéguer

éssayez pour voir

il suffit de mettre les tabs entre [ code ] & [ /code ]
(j'ai fait éxprés de mettre les éspaces pour voir )

cliquer s: citer pour mieux comprendre :

Ending Riffs #1
Code:
1|------------------------------------|-------------------|-------|1
2|------------------------------------|-------------------|-------|2
3|------------------------------------|-REPEAT-SAME-------|--6~7--|3
4|--2---2--2---2------2---2---2-------|-LICKS AT 7th Fret-|--6~7--|4
5|--2A--2--2A--2------2A--2A--2A~2----|-------------------|-------|5
6|----------------2B---------------2B-|-------------------|-------|6
7|------------------------------------|-------------------|-------|7
8|------------------------------------|-------------------|-------|8


Code:

--------------------------10---------------------------5----------------
--10---9--8---------10----10---------------------5-----5-----------------
--10---9--8--10----10-------------------10-------5-----------17-----------
-------------10-------------------------10--------------------17-----------
------------------------------------------------------------------------------
------------------------------------------------------------------------------

_________________
http://steelguitarfrance.com
http://pedalsteelguitarfrance.com
https://www.youtube.com/user/SteelGuitarFrance?


ZumSteel D10 9/8 - Gibson EH 150 - Mesa Boogie Studio Preamp - Lexicon MPX1
PV Telonics  - Peavey Nashville 1000 - BJS steel bar - Jagwire strings -
Revenir en haut Aller en bas
http://pedalsteelguitarfrance.com
 
Editer les tabs
Revenir en haut 
Page 1 sur 1
 Sujets similaires
-
» Blind Willie Johnson
» Recherche 2 morceaux de Ben Harper
» Une bonne tab technique de slide
» Recueil tablature Blind Willie Johnson
» Des ptits plans blues bien sympas!

Permission de ce forum:Vous ne pouvez pas répondre aux sujets dans ce forum
Steel Guitar France  :: Tablatures & Cours-
Sauter vers: