Steel Guitar France

Un Forum Français dédié a la Steel Guitar (Est 2001)
 
AccueilAccueil  FAQFAQ  S'enregistrerS'enregistrer  MembresMembres  Connexion  

Partagez | 
 

 Cours de Dobro

Voir le sujet précédent Voir le sujet suivant Aller en bas 
AuteurMessage
James Schmitt
Rang: Administrateur
avatar

Nombre de messages : 6041
Age : 100
Localisation : St Beat - Pyrenées
Date d'inscription : 04/07/2005

MessageSujet: Cours de Dobro   Jeu 9 Juil - 16:41


_________________
http://steelguitarfrance.com
http://pedalsteelguitarfrance.com
http://www.youtube.com/user/SteelGuitarFrance?


ZumSteel D10 9/8 - Gibson EH 150 - Mesa Boogie Studio Preamp - Lexicon MPX1
PV Telonics  - Peavey Nashville 1000 - BJS steel bar - Jagwire strings -


Dernière édition par James Schmitt le Mer 18 Jan - 10:18, édité 5 fois
Revenir en haut Aller en bas
https://www.facebook.com/will.pickit
James Schmitt
Rang: Administrateur
avatar

Nombre de messages : 6041
Age : 100
Localisation : St Beat - Pyrenées
Date d'inscription : 04/07/2005

MessageSujet: Re: Cours de Dobro   Lun 9 Nov - 8:36

" Crazy "

6 cordes reso en Bb:



1 2 3 4 |1 2 3 4 |1 2 3 4 |1 2 3 4 |1 2 3 4 |1 2 3 4 |
D|----------------|-------0-5-3-0--|----------------|----------------|--------8-------|----------------|
B|-2-3------------|-----0----------|--4/8-----------|-8-8------------|----------8-/10-|----------------|
G|----------------|---0------------|----------------|----------------|----------------|10--------------|
D|-----3----------|-4--------------|----------------|----------------|----10----------|----------------|
B|----------------|----------------|----------------|--------10------|--10------------|----------------|
G|----------------|----------------|----------------|----------------|10--------------|----------------|

1 2 3 4 |1 2 3 4 |1 2 3 4 |1 2 3 4 |1 2 3 4 |1 2 3 4 |
D|----------------|-------0-5-3-0--|----------------|----------------|----------0-----|----------------|
B|-2/3------------|-----0----------|--4/8-----------|-8-8------------|-------------1--|----------------|
G|----------------|---0------------|----------------|----------------|--------8-------|3---------------|
D|-----3----------|-4--------------|----------------|----------------|----10----------|----------------|
B|----------------|----------------|----------------|--------10------|--10------------|----------------|
G|----------------|----------------|----------------|----------------|10--------------|----------------|


1 2 3 4 |1 2 3 4 |1 2 3 4 |1 2 3 4 |1 2 3 4 |1 2 3 4 |
D|8---------------|------8-7-------|8--3------------|8-5-------------|----5---8--7-8--|----------------|
B|--8-------------|----8--------8--|----------------|----------------|--5-------------|10--9/10--------|
G|----------------|--8-------------|----------------|----------------|5---------------|---------10---10|
D|----------------|8---------------|----------3/4---|----------------|----------------|----------------|
B|----------------|----------------|----------3/4---|----------------|----------------|----------------|
G|----------------|----------------|----------3/4---|----------------|----------------|----------------|


1 2 3 4 |1 2 3 4 |1 2 3 4 |1 2 3 4 |1 2 3 4 |1 2 3 4 |
D|----------------|-------0-5-3-0--|----------------|8---------------|5-------3-------|----------0-----|
B|-2-3------------|-----0----------|--4/8-----------|-8-------10-----|--4-------3--2/3|4-----------3-2-|
G|----------------|---0------------|----------------|--8--------10-7-|----5-----------|------0---------|
D|-----3----------|-4--------------|----------------|----------------|----------------|--4-------------|
B|----------------|----------------|----------------|----------------|----------------|----------------|
G|----------------|----------------|----------------|----------------|----------------|----------------|

_________________
http://steelguitarfrance.com
http://pedalsteelguitarfrance.com
http://www.youtube.com/user/SteelGuitarFrance?


ZumSteel D10 9/8 - Gibson EH 150 - Mesa Boogie Studio Preamp - Lexicon MPX1
PV Telonics  - Peavey Nashville 1000 - BJS steel bar - Jagwire strings -
Revenir en haut Aller en bas
https://www.facebook.com/will.pickit
James Schmitt
Rang: Administrateur
avatar

Nombre de messages : 6041
Age : 100
Localisation : St Beat - Pyrenées
Date d'inscription : 04/07/2005

MessageSujet: Re: Cours de Dobro   Mar 26 Jan - 17:43


_________________
http://steelguitarfrance.com
http://pedalsteelguitarfrance.com
http://www.youtube.com/user/SteelGuitarFrance?


ZumSteel D10 9/8 - Gibson EH 150 - Mesa Boogie Studio Preamp - Lexicon MPX1
PV Telonics  - Peavey Nashville 1000 - BJS steel bar - Jagwire strings -


Dernière édition par James Schmitt le Mer 18 Jan - 10:19, édité 2 fois
Revenir en haut Aller en bas
https://www.facebook.com/will.pickit
James Schmitt
Rang: Administrateur
avatar

Nombre de messages : 6041
Age : 100
Localisation : St Beat - Pyrenées
Date d'inscription : 04/07/2005

MessageSujet: Re: Cours de Dobro   Lun 1 Nov - 11:02


_________________
http://steelguitarfrance.com
http://pedalsteelguitarfrance.com
http://www.youtube.com/user/SteelGuitarFrance?


ZumSteel D10 9/8 - Gibson EH 150 - Mesa Boogie Studio Preamp - Lexicon MPX1
PV Telonics  - Peavey Nashville 1000 - BJS steel bar - Jagwire strings -


Dernière édition par James Schmitt le Lun 31 Déc - 18:43, édité 2 fois
Revenir en haut Aller en bas
https://www.facebook.com/will.pickit
Xavier Quilici

avatar

Nombre de messages : 528
Age : 66
Localisation : Tarn
Date d'inscription : 06/07/2005

MessageSujet: Re: Cours de Dobro   Mar 2 Nov - 8:50

Bonjour

Ce TROY est un véritable "capitaine" du dobro Very Happy

El barbudo
Revenir en haut Aller en bas
http://rustylegs.wifeo.com/
James Schmitt
Rang: Administrateur
avatar

Nombre de messages : 6041
Age : 100
Localisation : St Beat - Pyrenées
Date d'inscription : 04/07/2005

MessageSujet: Re: Cours de Dobro   Jeu 23 Déc - 9:30



_________________
http://steelguitarfrance.com
http://pedalsteelguitarfrance.com
http://www.youtube.com/user/SteelGuitarFrance?


ZumSteel D10 9/8 - Gibson EH 150 - Mesa Boogie Studio Preamp - Lexicon MPX1
PV Telonics  - Peavey Nashville 1000 - BJS steel bar - Jagwire strings -


Dernière édition par James Schmitt le Sam 25 Déc - 20:13, édité 1 fois
Revenir en haut Aller en bas
https://www.facebook.com/will.pickit
John Sluszny



Nombre de messages : 1219
Localisation : Bruxelles
Date d'inscription : 14/07/2005

MessageSujet: Re: Cours de Dobro   Sam 25 Déc - 20:03

...haine euh ha pis nouillir !
Revenir en haut Aller en bas
James Schmitt
Rang: Administrateur
avatar

Nombre de messages : 6041
Age : 100
Localisation : St Beat - Pyrenées
Date d'inscription : 04/07/2005

MessageSujet: Re: Cours de Dobro   Lun 31 Déc - 18:42

Buddy Emmons : Dobro: "The Wabash Cannonball" - "rainbow" Steel Guitar album on Flying Fish.

Merci a Frank Freniere

AUDIO




_________________
http://steelguitarfrance.com
http://pedalsteelguitarfrance.com
http://www.youtube.com/user/SteelGuitarFrance?


ZumSteel D10 9/8 - Gibson EH 150 - Mesa Boogie Studio Preamp - Lexicon MPX1
PV Telonics  - Peavey Nashville 1000 - BJS steel bar - Jagwire strings -
Revenir en haut Aller en bas
https://www.facebook.com/will.pickit
James Schmitt
Rang: Administrateur
avatar

Nombre de messages : 6041
Age : 100
Localisation : St Beat - Pyrenées
Date d'inscription : 04/07/2005

MessageSujet: Re: Cours de Dobro   Jeu 13 Juin - 21:21


_________________
http://steelguitarfrance.com
http://pedalsteelguitarfrance.com
http://www.youtube.com/user/SteelGuitarFrance?


ZumSteel D10 9/8 - Gibson EH 150 - Mesa Boogie Studio Preamp - Lexicon MPX1
PV Telonics  - Peavey Nashville 1000 - BJS steel bar - Jagwire strings -
Revenir en haut Aller en bas
https://www.facebook.com/will.pickit
Contenu sponsorisé




MessageSujet: Re: Cours de Dobro   

Revenir en haut Aller en bas
 
Cours de Dobro
Voir le sujet précédent Voir le sujet suivant Revenir en haut 
Page 1 sur 1
 Sujets similaires
-
» tab de bluegrass
» Cours de Guitare, Guitare Slide, Dobro, Lapsteel
» Stage de dobro du 5 au 10 avril 2010 - Virton (Belgique)
» Cours video pour debutant
» Stages Dobro & Slide

Permission de ce forum:Vous ne pouvez pas répondre aux sujets dans ce forum
Steel Guitar France  :: Tablatures & Cours-
Sauter vers: