Steel Guitar France

Un Forum Français dédié a la Steel Guitar (Est 2001)
 
AccueilAccueil  FAQFAQ  S'enregistrerS'enregistrer  MembresMembres  Connexion  

Partagez | 
 

 Divers Tabs PSG C6

Voir le sujet précédent Voir le sujet suivant Aller en bas 
Aller à la page : Précédent  1, 2
AuteurMessage
James Schmitt
Rang: Administrateur


Nombre de messages : 6041
Age : 99
Localisation : St Beat - Pyrenées
Date d'inscription : 04/07/2005

MessageSujet: Re: Divers Tabs PSG C6   Ven 25 Juin - 8:21

Cherokee
Merci a John Steel du Canada

Partie A

Code:

..Bb...........F-7..Bb13...EbM7............Ab7#11.....

1-------------|----------|----------------|-----------|
2-------------|----------|----------------|-----------|
3-----5--5(7--|-8(7------|-3(7-------3(7--|-----------|
4--5----------|-8(7--8(7-|-3(7--3(7--3(7--|-3(7--3----|
5-----5--5----|------8(5-|------3---------|-----------|
6--5----------|-8--------|-3---------3----|-3(6--3(6--|
7-------------|------8---|------3---------|-3----3----|
8-----5--5----|----------|----------------|-----------|
9--5----------|----------|----------------|-----------|
10------------|----------|----------------|-----------|

..Bb...........C9..........C-7.G7.....C-7..F7#5
1------------|-----------|-----------|---------
2------------|-10--------|-3---------|---------
3-----5--5(7-|-10----10--|-3--5------|---------
4--5---------|-------10--|----5--5---|-3--3R---
5-----5------|-10(5------|-3-----5(5-|-3--3(5--
6--5---------|-------10--|----5------|---------
7------------|-----------|-------5---|-3-------
8-----5------|-----------|-----------|---------
9--5---------|-----------|-----------|---------
10-----------|-----------|-----------|---------


..Bb...........F-7..Bb13...EbM7............Ab7#11.....

1-------------|----------|----------------|-----------|
2-------------|----------|----------------|-----------|
3-----5--5(7--|-8(7------|-3(7-------3(7--|-----------|
4--5----------|-8(7--8(7-|-3(7--3(7--3(7--|-3(7--3----|
5-----5--5----|------8(5-|------3---------|-----------|
6--5----------|-8--------|-3---------3----|-3(6--3(6--|
7-------------|------8---|------3---------|-3----3----|
8-----5--5----|----------|----------------|-----------|
9--5----------|----------|----------------|-----------|
10------------|----------|----------------|-----------|

..Bb............C9.........C-7..F13.......Bb

1-------------|-----------|--------------|------|
2-------------|-10--------|-3------------|------|
3-----5--5(7--|-10----10--|-3------------|------|
4--5----------|-------10--|----3(7--3(7--|-1----|
5-----5-------|-10(5------|-3--3(5--3(5--|------|
6--5----------|-------10--|--------------|-1----|
7-------------|-----------|----3----3----|-1(8--|
8-----5-------|-----------|--------------|------|
9--5----------|-----------|--------------|------|
10------------|-----------|--------------|------|

le pont :


Code:

..C#m7..F#7.....BM7.....................Bm7............E7....
1--------------|-----------------------|---------------------|
2--------------|-----------------------|---------------------|
3--------------|--11(7-----------11(7--|---------------------|
4--16(7--16----|--11(7--11(7-----11----|-14(7----------14----|
5--16----16(5--|-------------11--------|-14---14-------14(5--|
6--------------|--11-------------11----|----------14---------|
7--16----16----|-----------------------|-14------------14----|
8--------------|-----------------------|---------------------|
9--------------|-----------------------|---------------------|
10-------------|-----------------------|---------------------|

...A...........Am7...D7......GM7..............
1------|-----|-------------|------------------|
2------|-----|-------------|------------------|
3------|-----|-------------|--7(7---------7(7-|
4------|-----|--12(7--12---|--7(7--7(7----7(7-|
5--9~~~|~~9--|--12----12(5-|------------7-----|
6--9~~~|~~9--|-------------|--7-----------7---|
7--9~~~|~~9--|--12----12---|------------------|
8------|-----|-------------|------------------|
9------|-----|-------------|------------------|
10-----|-----|-------------|------------------|

..Gm7...........C7......Cm7..F7#5.
1---------------------|----------|
2---------------------|----------|
3---------------------|----------|
4--10(7----------10---|--3---3r--|
5--10----10------10(5-|--3---3(5-|
6------------10-------|----------|
7--10------------10---|--3---3---|
8---------------------|----------|
9---------------------|----------|
10--------------------|----------|

si vous n'avez pas de levier s: corde 4,le F7#5 est ici:

[tab]
...F7#5..

1-------
2-------
3-------
4-------
5---6---
6---6(6-
7-------
8---6---
9-------
10------
[/tab]


Charlie Parker playing "Koko", which is an improvisation over the "Cherokee" changes. It is preceded by an (unrelated) introduction with Dizzy Gillespie, and the improvisation over these changes begins approximately 26 seconds in:

http://www.youtube.com/watch?v=4rMiD8UUcd0

Astoundingly, there is a live version from a Carnegie Hall concert which is considerably faster than this.

Another Charlie Parker-Cherokee-related gem: This is "Warmin' Up a Riff" which was really a studio sound check, which is why is fades in, toward the end of the B section:
http://www.youtube.com/watch?v=9FuN1vZPp3k

_________________
http://steelguitarfrance.com
http://pedalsteelguitarfrance.com
http://www.youtube.com/user/SteelGuitarFrance?
https://www.facebook.com/will.pickit


ZumSteel D10 9/8 - Gibson EH 150 - Mesa Boogie Studio Preamp - Lexicon MPX1
PV Telonics  - Peavey Nashville 1000 - BJS steel bar - Jagwire strings -


Dernière édition par James Schmitt le Dim 5 Fév - 14:43, édité 2 fois
Revenir en haut Aller en bas
https://www.facebook.com/will.pickit
James Schmitt
Rang: Administrateur


Nombre de messages : 6041
Age : 99
Localisation : St Beat - Pyrenées
Date d'inscription : 04/07/2005

MessageSujet: Re: Divers Tabs PSG C6   Jeu 3 Fév - 8:46

"Good Deal Lucille" by Carl Smith

Curly Chalker solo at 1:48 of "CD Solos 1" chez Greg Cutshaw' : http://bb.steelguitarforum.com/viewtopic.php?t=152994&highlight=curly+chalker

ou audio ici :
CLICK HERE




_________________
http://steelguitarfrance.com
http://pedalsteelguitarfrance.com
http://www.youtube.com/user/SteelGuitarFrance?
https://www.facebook.com/will.pickit


ZumSteel D10 9/8 - Gibson EH 150 - Mesa Boogie Studio Preamp - Lexicon MPX1
PV Telonics  - Peavey Nashville 1000 - BJS steel bar - Jagwire strings -
Revenir en haut Aller en bas
https://www.facebook.com/will.pickit
James Schmitt
Rang: Administrateur


Nombre de messages : 6041
Age : 99
Localisation : St Beat - Pyrenées
Date d'inscription : 04/07/2005

MessageSujet: Re: Divers Tabs PSG C6   Lun 14 Fév - 19:49

Complete Song Audio


Rhythm Track

Chord Chart

Tab In pdf Format










_________________
http://steelguitarfrance.com
http://pedalsteelguitarfrance.com
http://www.youtube.com/user/SteelGuitarFrance?
https://www.facebook.com/will.pickit


ZumSteel D10 9/8 - Gibson EH 150 - Mesa Boogie Studio Preamp - Lexicon MPX1
PV Telonics  - Peavey Nashville 1000 - BJS steel bar - Jagwire strings -
Revenir en haut Aller en bas
https://www.facebook.com/will.pickit
James Schmitt
Rang: Administrateur


Nombre de messages : 6041
Age : 99
Localisation : St Beat - Pyrenées
Date d'inscription : 04/07/2005

MessageSujet: Re: Divers Tabs PSG C6   Mer 6 Avr - 7:14

" Night Life " solo par Tommy Detamore

audio ici




_________________
http://steelguitarfrance.com
http://pedalsteelguitarfrance.com
http://www.youtube.com/user/SteelGuitarFrance?
https://www.facebook.com/will.pickit


ZumSteel D10 9/8 - Gibson EH 150 - Mesa Boogie Studio Preamp - Lexicon MPX1
PV Telonics  - Peavey Nashville 1000 - BJS steel bar - Jagwire strings -
Revenir en haut Aller en bas
https://www.facebook.com/will.pickit
James Schmitt
Rang: Administrateur


Nombre de messages : 6041
Age : 99
Localisation : St Beat - Pyrenées
Date d'inscription : 04/07/2005

MessageSujet: Re: Divers Tabs PSG C6   Mer 18 Mai - 7:37

D a D# s: corde 1 ( style Curley Chalker )

Audio

Tab In pdf Format


_________________
http://steelguitarfrance.com
http://pedalsteelguitarfrance.com
http://www.youtube.com/user/SteelGuitarFrance?
https://www.facebook.com/will.pickit


ZumSteel D10 9/8 - Gibson EH 150 - Mesa Boogie Studio Preamp - Lexicon MPX1
PV Telonics  - Peavey Nashville 1000 - BJS steel bar - Jagwire strings -
Revenir en haut Aller en bas
https://www.facebook.com/will.pickit
James Schmitt
Rang: Administrateur


Nombre de messages : 6041
Age : 99
Localisation : St Beat - Pyrenées
Date d'inscription : 04/07/2005

MessageSujet: Re: Divers Tabs PSG C6   Lun 3 Oct - 8:37

" Anthropology " de Charlie Parker par Doug Jernigan s: "Country Jazz "
merci a John Swain



_________________
http://steelguitarfrance.com
http://pedalsteelguitarfrance.com
http://www.youtube.com/user/SteelGuitarFrance?
https://www.facebook.com/will.pickit


ZumSteel D10 9/8 - Gibson EH 150 - Mesa Boogie Studio Preamp - Lexicon MPX1
PV Telonics  - Peavey Nashville 1000 - BJS steel bar - Jagwire strings -
Revenir en haut Aller en bas
https://www.facebook.com/will.pickit
James Schmitt
Rang: Administrateur


Nombre de messages : 6041
Age : 99
Localisation : St Beat - Pyrenées
Date d'inscription : 04/07/2005

MessageSujet: Re: Divers Tabs PSG C6   Dim 8 Jan - 12:50

plan de gamme diminué en C6

http://www.youtube.com/watch?v=DEUj6dhAOqI

Code:

1-------------------------------------------------12
2-----------------------------------------11--12
3--------------------------5(7)------11(7)---------12--11
4----------------------5(7)-------11(7)----------------------12
5-----------------6--5----------11-------------------------------12--11--10
6--------------6------------------------------------------------------------------12-----3--2--1
7--------7--6------------------------------------------------------------------------12------------3
8-----7-------------------------------------------------------------------------------------------------3--1
9--7----------------------------------------------------------------------------------------------------------2--1
10------------------------------------------------------------------------------------------------------------------3--0



_________________
http://steelguitarfrance.com
http://pedalsteelguitarfrance.com
http://www.youtube.com/user/SteelGuitarFrance?
https://www.facebook.com/will.pickit


ZumSteel D10 9/8 - Gibson EH 150 - Mesa Boogie Studio Preamp - Lexicon MPX1
PV Telonics  - Peavey Nashville 1000 - BJS steel bar - Jagwire strings -
Revenir en haut Aller en bas
https://www.facebook.com/will.pickit
James Schmitt
Rang: Administrateur


Nombre de messages : 6041
Age : 99
Localisation : St Beat - Pyrenées
Date d'inscription : 04/07/2005

MessageSujet: Re: Divers Tabs PSG C6   Sam 21 Jan - 14:10

Dawn Sears - " If you're gonna do me wrong, do it right "

Merci a Niklas Widen

http://www.youtube.com/watch?v=cixiEyfeJSg

C pedal raises 8 E-F#
F = raise E-F
b = lower E-Eb
bb = lower D#-C#
a = A half-pedal

Citation :

F#------------------------------------------------------------------------------------------------
D#-----------------------------------------------------------------------------------------------
G#-----------------------------------------------------------------------------------------------
E --------------------------------------------------------------------------------11-------------
B -----------------------4~~~1---------------4~4A~~7A~~11-----11~11A---------------------------
G#------4~4B---------------------------------4---~~7~~~11-----11-~11B----------------------------
F#-----------------------------------------------------------------------------------------------
E ------------------------------------------------------------------------------------------------
D ------------------------------------------------------------------------------------------------
B ------------------------------------------------------------------------------------------------

F#------------------------------------------------------------------------------------------------
D#-----------------------------------------------------------------------------------------------
G#--------------------16---------16B--------~~16----------------------------------
E -----16~16C--------------------16C~16b~16C~~16------------------16~16C----------------
B ------------------------------------------------------------------------------------------------
G#-----16~16B-----------------------------------------------------16~16B-----------------
F#------------------------------------------------------------------------------------------------
E ------------------------------------------------------------------------------------------------
D ------------------------------------------------------------------------------------------------
B ------------------------------------------------------------------------------------------------

F#----16---------18-----------19~~~18C~~------------------16--------------------
D#-----------------------------------------------------------------------------------------------
G#-----------------------------------------------------------------------------------------------
E ----16C--------18C----------19C~~18C~~-18~18C-----------16C~16~16b-----
B ------------------------------------------------------------------------------------------------
G#-----------------------------------------------------------------------------------------------
F#------------------------------------------------------------------------------------------------
E ------------------------------------------------------------------------------------------------
D ------------------------------------------------------------------------------------------------
B ------------------------------------------------------------------------------------------------

F#------------------------------------------------------------------------------------------------
D#---16~~16bb-------------------------------------------------------------------------------
G#-----------------------------------------------------------------------------------------------
E --------------------------------------------------------------------------------------------------
B -----------------------´16---------------16~16A~~~14-----------16~~16A------------
G#-----------------------------------------16~16B~~~14-----------16~~16B-----------
E ------------------------------------------------------------------------------------------------
D ------------------------------------------------------------------------------------------------
B ------------------------------------------------------------------------------------------------

F#------------------------------------------------------------------------------------------------
D#-----------------------------------------------------------------------------------------------
G#-----------------------------------------------------------------------------------------------
E -------------------------11------------------------------9~~-12F------12F~11-----
B -------16~16A~~~11A------11~11A--------------------------9A~-12A------12A~11A---
G#-------16~16B~~~11B--------------------------------------------------------------------
F#------------------------------------------------------------------------------------------------
E ------------------------------------------------------------------------------------------------
D ------------------------------------------------------------------------------------------------
B ------------------------------------------------------------------------------------------------

F#------------------------------------------------------------------------------------------------
D#-----------------------------------------------------------------------------------------------
G#-----------------------------------------------------------------------------------------------
E ------11------~9---------------------------------------------4----------------
B ------11a~11A-~9A-------------11~~11A~~~9---------------------------------------
G#-----------------------------------------------------------------------------------------------
F#------------------------------------------------------------------------------------------------
E ------------------------------11-----~~9b--------------------4~b~~4~b---
D ------------------------------------------------------------------------------------------------
B ------------------------------------------------------------------------------------------------

F#------------------------------------------------------------------------------------------------
D#-----------------------------------------------------------------------------------------------
G#-----------------------------------------------------------------------------------------------
E -----------------------------------4b---------------4-----------------------------------------
B ------2~2A-------------------------4----------------4A---------------9~~9A~~9-----------
G#----------------------------------------------------------------------------------------------
F#------------------------------------------------------------------------------------------------
E ------2--------------------------------------------------------------9-------------------------
D ------------------------------------------------------------------------------------------------
B -------------------------------------------------------------------------------------------------

F#------------------------------------------------------------------------------------------------
D#-----------------------------------------------------------------------------------------------
G#-----------------------------------------------------------------------------------------------
E -----------------------------------------------------------------------------------------------
B ----4A~~2A~~2~4A~~2A~~2~~4A~~2A~~~2~~~4~~4A----------------------
G#-----------------------------------------------------------------------------------------------
F#-----------------------------------------------------------------------------------------------
E ----4~~~2~~~2b~4~~~2~~~2b~4~~~2~~~~2b~~4~~4-----------------------
D ------------------------------------------------------------------------------------------------
B ------------------------------------------------------------------------------------------------

F#------------------------------------------------------------------------------------------------
D#-----------------------------------------------------------------------------------------------
G#----4--4B--------4B~~6B-----------------------------------------------4B~~4~4B----
E -------------------------------------------------6~~5b~~4b-------------------------------
B ----4--4A--------4A~~6A--------------------------6A~5A~~4A------------4A~~4~4A---
G#-------------------------------------------------6B~5B~~4B------------------------------
F#------------------------------------------------------------------------------------------------
E ------------------------------------------------------------------------------------------------
D ------------------------------------------------------------------------------------------------
B ------------------------------------------------------------------------------------------------

F#--------------2---------------------------2------------------------------------------------
D#---2---------------------2-----------------------------------------------------------------
G#---2~~2B~~2--------------2~~2B~~2---------------------------------------------------
E ---------------------------------------------------------2~~~4----------------------------
B ---2~~2A~~2--------------2~~2A~~2------------------------2~~~4---------------------
G#---------------------------------------------------------2~~~4--------------------------
F#------------------------------------------------------------------------------------------------
E ------------------------------------------------------------------------------------------------
D ------------------------------------------------------------------------------------------------
B ------------------------------------------------------------------------------------------------

F#------------------------------------------------------------------------------------------------
D#-------------------------------------------------9---------------------------------
G#-----------------------------------------------------------------------------------------------
E --------------------------------------------------------9~~~11---------------
B -------------------4~~4A~~~~7A~~~8A~~9A-----------------9A~~11A-------------
G#---4~4B------------4------~~7~~~-8B~~9B-------------------------------------------
F#------------------------------------------------------------------------------------------------
E ---4~4C------------------------------------------------------------------------------------
D ------------------------------------------------------------------------------------------------
B ------------------------------------------------------------------------------------------------

F#------------------------------------------------------------------------------------------------
D#-----------------------------------------------------------------------------------------------
G#-----------------------------------------------------------------------------------------------
E -----12F--------------------------------------------------------------------------------------
B -----12A--------------------------------------------------------------------------------------
G#-----------------------------------------------------------------------------------------------
F#------------------------------------------------------------------------------------------------
E ------------------------------------------------------------------------------------------------
D ------------------------------------------------------------------------------------------------
B ------------------------------------------------------------------------------------------------

_________________
http://steelguitarfrance.com
http://pedalsteelguitarfrance.com
http://www.youtube.com/user/SteelGuitarFrance?
https://www.facebook.com/will.pickit


ZumSteel D10 9/8 - Gibson EH 150 - Mesa Boogie Studio Preamp - Lexicon MPX1
PV Telonics  - Peavey Nashville 1000 - BJS steel bar - Jagwire strings -
Revenir en haut Aller en bas
https://www.facebook.com/will.pickit
James Schmitt
Rang: Administrateur


Nombre de messages : 6041
Age : 99
Localisation : St Beat - Pyrenées
Date d'inscription : 04/07/2005

MessageSujet: Re: Divers Tabs PSG C6   Ven 31 Aoû - 9:18

Merci a Ferdinando Ghidelli
A classic evergreen played by the great Curly Chalker on C6th neck. Listen:

http://yourlisten.com/channel/content/16911587/blue_spanish_eyes











[/quote]

_________________
http://steelguitarfrance.com
http://pedalsteelguitarfrance.com
http://www.youtube.com/user/SteelGuitarFrance?
https://www.facebook.com/will.pickit


ZumSteel D10 9/8 - Gibson EH 150 - Mesa Boogie Studio Preamp - Lexicon MPX1
PV Telonics  - Peavey Nashville 1000 - BJS steel bar - Jagwire strings -
Revenir en haut Aller en bas
https://www.facebook.com/will.pickit
James Schmitt
Rang: Administrateur


Nombre de messages : 6041
Age : 99
Localisation : St Beat - Pyrenées
Date d'inscription : 04/07/2005

MessageSujet: Re: Divers Tabs PSG C6   Sam 12 Jan - 10:51




_________________
http://steelguitarfrance.com
http://pedalsteelguitarfrance.com
http://www.youtube.com/user/SteelGuitarFrance?
https://www.facebook.com/will.pickit


ZumSteel D10 9/8 - Gibson EH 150 - Mesa Boogie Studio Preamp - Lexicon MPX1
PV Telonics  - Peavey Nashville 1000 - BJS steel bar - Jagwire strings -


Dernière édition par James Schmitt le Ven 19 Avr - 22:17, édité 2 fois
Revenir en haut Aller en bas
https://www.facebook.com/will.pickit
James Schmitt
Rang: Administrateur


Nombre de messages : 6041
Age : 99
Localisation : St Beat - Pyrenées
Date d'inscription : 04/07/2005

MessageSujet: Re: Divers Tabs PSG C6   Jeu 18 Avr - 21:16

Backing Track :
http://www.youtube.com/watch?v=Zg4unlz_NvU


_________________
http://steelguitarfrance.com
http://pedalsteelguitarfrance.com
http://www.youtube.com/user/SteelGuitarFrance?
https://www.facebook.com/will.pickit


ZumSteel D10 9/8 - Gibson EH 150 - Mesa Boogie Studio Preamp - Lexicon MPX1
PV Telonics  - Peavey Nashville 1000 - BJS steel bar - Jagwire strings -
Revenir en haut Aller en bas
https://www.facebook.com/will.pickit
James Schmitt
Rang: Administrateur


Nombre de messages : 6041
Age : 99
Localisation : St Beat - Pyrenées
Date d'inscription : 04/07/2005

MessageSujet: Re: Divers Tabs PSG C6   Jeu 30 Mai - 10:42

Night Life/steel intro/key of D/C6th pedal steel
(To play more than three notes; play top two notes with)
(fingers, and rake up with the thumb from botton note. )
Code:

        (DM7)      (F7)        (BbM7)        (Eb9)    (DM7)           
1.______|_________|___________|_____________|____________
2.______|_________|___________|_____________|____________
3._6~7~8|_9_______|___________|_____________|____________
4.______|___9~10__|~12_____10_|_10(7)___10__|_10(7)~10~~9
5.______|_9_______|______10___|_10____10____|_10~~~~~~~~9
6.______|_________|~12(6)_____|_10__________|_10(6)~~~~~9
7.______|_________|___________|_10__________|_10~~~~~~~~9
8.______|_9_______|___________|_____________|_10~~~~~~~~9
9.______|_________|~12________|_____________|_10~~~~~~~~9
10._____|_________|___________|_____________|____________

Night Life/steel break/key of D/C6th pedal steel

                (D)                        (D7)
D)1.____________|___________________________|_________________
E)2.____________|_______1~~~~2______________|_________________
C)3.____________|_7(7)__1~~~~2__3~~14~~11~~~|12~~~~11~~~~12~~
A)4._10(7)~10(7)|_7(7)__________3~~14~~11~~~|12~~~~11~~~~12~~
G)5._10___~10___|_7_____1(5)~2__3~~14~~11(5)|12(5)~11(5)~12(5)
E)6._10(6)~10(6)|_7_____________3~~14~~11~~~|12~~~~11~~~~12~~
C)7._10___~10___|___________________________|_________________
A)8.____________|___________________________|_________________
F)9.____________|___________________________|_________________
C)10.___________|___________________________|_________________
    (D13)        (G)          (Gm)            (D)            (B7)

1.__________|_________________|______________|____________________
2._6(6)_6(6)|_________________|______________|____________________
3._6____6___|_7~7(7)_7________|______________|_8~7___2__________2_
4.__________|_________________|_____________7|_8~7________________
5._6(5)_6(5)|_7~~~~~_7_7______|___________7__|____7_____2_______2_
6.__________|__________7_~10~~|~7(6)~_5_7____|____________________
7.__________|____________~10~~|~7~~~~________|____________________
8.__________|_7~~~~~_7_7_~10~~|~7~~~~________|____________________
9.__________|_________________|______________|____________________
10._________|_________________|___7__________|_____________2~2(8)_
      (E7)          (A13)    (DM7)      (F7)    (BbM7) (Eb9)
 
1.____|________________________|_________________|_______________
2.___2|_2~~~~____2___1~(6)_1(6)|_________________|_______________
3.___2|_2~~~~__2_____1~~~~_1___|_2_______________|______10(7)~10L
4.____|________________________|_2__9~10_12____10|_10(7)10(7)~10
5._2~~|_2~2(5)_2(5)__1(5)~_1(5)|_____________10__|_10___10~~~~~~~
6.____|________________________|_2_______12(6)___|_10___10(6)~~~~
7.____|________________________|_________________|_10___10~~~~~~~
8.____|________________________|_________________|_______________
9.____|________________________|_________12______|_______________
10.___|________________________|_________________|_______________

_________________
http://steelguitarfrance.com
http://pedalsteelguitarfrance.com
http://www.youtube.com/user/SteelGuitarFrance?
https://www.facebook.com/will.pickit


ZumSteel D10 9/8 - Gibson EH 150 - Mesa Boogie Studio Preamp - Lexicon MPX1
PV Telonics  - Peavey Nashville 1000 - BJS steel bar - Jagwire strings -
Revenir en haut Aller en bas
https://www.facebook.com/will.pickit
James Schmitt
Rang: Administrateur


Nombre de messages : 6041
Age : 99
Localisation : St Beat - Pyrenées
Date d'inscription : 04/07/2005

MessageSujet: Re: Divers Tabs PSG C6   Dim 24 Nov - 10:41

Merci a Frank Freniere

AUDIO1








AUDIO2








AUDIO3



AUDIO4



AUDIO5


_________________
http://steelguitarfrance.com
http://pedalsteelguitarfrance.com
http://www.youtube.com/user/SteelGuitarFrance?
https://www.facebook.com/will.pickit


ZumSteel D10 9/8 - Gibson EH 150 - Mesa Boogie Studio Preamp - Lexicon MPX1
PV Telonics  - Peavey Nashville 1000 - BJS steel bar - Jagwire strings -


Dernière édition par James Schmitt le Lun 25 Nov - 4:13, édité 1 fois
Revenir en haut Aller en bas
https://www.facebook.com/will.pickit
John Sluszny



Nombre de messages : 1219
Localisation : Bruxelles
Date d'inscription : 14/07/2005

MessageSujet: Re: Divers Tabs PSG C6   Dim 24 Nov - 23:31

Merci à James aussi !
Revenir en haut Aller en bas
James Schmitt
Rang: Administrateur


Nombre de messages : 6041
Age : 99
Localisation : St Beat - Pyrenées
Date d'inscription : 04/07/2005

MessageSujet: Re: Divers Tabs PSG C6   Mer 8 Jan - 17:08


_________________
http://steelguitarfrance.com
http://pedalsteelguitarfrance.com
http://www.youtube.com/user/SteelGuitarFrance?
https://www.facebook.com/will.pickit


ZumSteel D10 9/8 - Gibson EH 150 - Mesa Boogie Studio Preamp - Lexicon MPX1
PV Telonics  - Peavey Nashville 1000 - BJS steel bar - Jagwire strings -
Revenir en haut Aller en bas
https://www.facebook.com/will.pickit
James Schmitt
Rang: Administrateur


Nombre de messages : 6041
Age : 99
Localisation : St Beat - Pyrenées
Date d'inscription : 04/07/2005

MessageSujet: Re: Divers Tabs PSG C6   Ven 3 Oct - 17:10

" At Es " - Buddy Emmons -PDF version :
https://www.sendspace.com/file/qrsmpu




[/q

_________________
http://steelguitarfrance.com
http://pedalsteelguitarfrance.com
http://www.youtube.com/user/SteelGuitarFrance?
https://www.facebook.com/will.pickit


ZumSteel D10 9/8 - Gibson EH 150 - Mesa Boogie Studio Preamp - Lexicon MPX1
PV Telonics  - Peavey Nashville 1000 - BJS steel bar - Jagwire strings -
Revenir en haut Aller en bas
https://www.facebook.com/will.pickit
Contenu sponsorisé




MessageSujet: Re: Divers Tabs PSG C6   Aujourd'hui à 10:29

Revenir en haut Aller en bas
 
Divers Tabs PSG C6
Voir le sujet précédent Voir le sujet suivant Revenir en haut 
Page 2 sur 2Aller à la page : Précédent  1, 2
 Sujets similaires
-
» Des tabs de blues
» Vivaldi: divers (sujet bordélique, classé archive...)
» Jimmy Bryant - guitar tabs
» Jimmy Bryant - guitar tabs
» recherche tabs de jeff lang

Permission de ce forum:Vous ne pouvez pas répondre aux sujets dans ce forum
Steel Guitar France  :: Tablatures & Cours-
Sauter vers: